[NEW] Chords Kunci Gitar d'Masiv Cinta sampai disini [tab] Lirik Terjemahan Arti Lagu

Intro chords d'Masiv Cinta sampai disini [tab] lyrics : 


--------------------------|---------------------------|
------5-5---5----5---5~---|------5-5---5----5---5~----|
----7-----7----7---7------|----7-----7----7---7-------|
--------------------------|---------------------------|
--------------------------|---------------------------|
--------------------------|---------------------------|


------------------------------------------------------|
-------5-5---5-----5h6-5------------------------------|
-----7-----7----7--------7-5---7s9-7~~----------------|
-----------------------------7------------------------|
------------------------------------------------------|
------------------------------------------------------|